  0
SECTION
  2
HEADER
  9
$ACADVER
  1
AC1009
  9
$INSBASE
 10
145.031288175156
 20
221.8041251649284
 30
0.0
  9
$EXTMIN
 10
145.031288175156
 20
221.8041251649284
 30
0.0
  9
$EXTMAX
 10
231.0256667975862
 20
317.6423581324423
 30
0.0
  9
$LIMMIN
 10
0.0
 20
0.0
  9
$LIMMAX
 10
420.0
 20
297.0
  9
$ORTHOMODE
 70
     1
  9
$REGENMODE
 70
     1
  9
$FILLMODE
 70
     1
  9
$QTEXTMODE
 70
     0
  9
$MIRRTEXT
 70
     0
  9
$DRAGMODE
 70
     2
  9
$LTSCALE
 40
1.0
  9
$OSMODE
 70
     0
  9
$ATTMODE
 70
     1
  9
$TEXTSIZE
 40
3.5
  9
$TRACEWID
 40
0.1
  9
$TEXTSTYLE
  7
STANDARD
  9
$CLAYER
  8
ITEM_50
  9
$CELTYPE
  6
BYLAYER
  9
$CECOLOR
 62
   256
  9
$DIMSCALE
 40
1.0
  9
$DIMASZ
 40
2.0
  9
$DIMEXO
 40
1.0
  9
$DIMDLI
 40
8.0
  9
$DIMRND
 40
0.0
  9
$DIMDLE
 40
0.0
  9
$DIMEXE
 40
2.0
  9
$DIMTP
 40
0.1
  9
$DIMTM
 40
0.1
  9
$DIMTXT
 40
3.5
  9
$DIMCEN
 40
2.0
  9
$DIMTSZ
 40
0.0
  9
$DIMTOL
 70
     0
  9
$DIMLIM
 70
     0
  9
$DIMTIH
 70
     0
  9
$DIMTOH
 70
     0
  9
$DIMSE1
 70
     0
  9
$DIMSE2
 70
     0
  9
$DIMTAD
 70
     1
  9
$DIMZIN
 70
     8
  9
$DIMBLK
  1

  9
$DIMASO
 70
     1
  9
$DIMSHO
 70
     1
  9
$DIMPOST
  1

  9
$DIMAPOST
  1

  9
$DIMALT
 70
     0
  9
$DIMALTD
 70
     2
  9
$DIMALTF
 40
25.39999999999999
  9
$DIMLFAC
 40
1.0
  9
$DIMTOFL
 70
     1
  9
$DIMTVP
 40
0.0
  9
$DIMTIX
 70
     0
  9
$DIMSOXD
 70
     0
  9
$DIMSAH
 70
     0
  9
$DIMBLK1
  1

  9
$DIMBLK2
  1

  9
$DIMSTYLE
  2
*UNNAMED
  9
$DIMCLRD
 70
     0
  9
$DIMCLRE
 70
     0
  9
$DIMCLRT
 70
     0
  9
$DIMTFAC
 40
1.0
  9
$DIMGAP
 40
0.09
  9
$LUNITS
 70
     2
  9
$LUPREC
 70
     3
  9
$SKETCHINC
 40
0.1
  9
$FILLETRAD
 40
20.0
  9
$AUNITS
 70
     0
  9
$AUPREC
 70
     1
  9
$MENU
  1

  9
$ELEVATION
 40
0.0
  9
$PELEVATION
 40
0.0
  9
$THICKNESS
 40
0.0
  9
$LIMCHECK
 70
     0
  9
$BLIPMODE
 70
     0
  9
$CHAMFERA
 40
5.0
  9
$CHAMFERB
 40
5.0
  9
$SKPOLY
 70
     1
  9
$TDCREATE
 40
2448758.637405208
  9
$TDUPDATE
 40
2449393.440007870
  9
$TDINDWG
 40
0.0046656250
  9
$TDUSRTIMER
 40
0.0046656250
  9
$USRTIMER
 70
     1
  9
$ANGBASE
 50
0.0
  9
$ANGDIR
 70
     0
  9
$PDMODE
 70
     0
  9
$PDSIZE
 40
0.0
  9
$PLINEWID
 40
0.0
  9
$COORDS
 70
     2
  9
$SPLFRAME
 70
     0
  9
$SPLINETYPE
 70
     6
  9
$SPLINESEGS
 70
     8
  9
$ATTDIA
 70
     1
  9
$ATTREQ
 70
     1
  9
$HANDLING
 70
     0
  9
$HANDSEED
  5
2FBA
  9
$SURFTAB1
 70
     6
  9
$SURFTAB2
 70
     6
  9
$SURFTYPE
 70
     6
  9
$SURFU
 70
     6
  9
$SURFV
 70
     6
  9
$UCSNAME
  2

  9
$UCSORG
 10
0.0
 20
0.0
 30
0.0
  9
$UCSXDIR
 10
1.0
 20
0.0
 30
0.0
  9
$UCSYDIR
 10
0.0
 20
1.0
 30
0.0
  9
$PUCSNAME
  2

  9
$PUCSORG
 10
0.0
 20
0.0
 30
0.0
  9
$PUCSXDIR
 10
1.0
 20
0.0
 30
0.0
  9
$PUCSYDIR
 10
0.0
 20
1.0
 30
0.0
  9
$USERI1
 70
     0
  9
$USERI2
 70
     3
  9
$USERI3
 70
    15
  9
$USERI4
 70
     0
  9
$USERI5
 70
     0
  9
$USERR1
 40
1.0
  9
$USERR2
 40
1.0
  9
$USERR3
 40
0.0
  9
$USERR4
 40
1.0
  9
$USERR5
 40
0.0
  9
$WORLDVIEW
 70
     5
  9
$SHADEDGE
 70
     3
  9
$SHADEDIF
 70
    70
  9
$TILEMODE
 70
     1
  9
$MAXACTVP
 70
    16
  9
$PINSBASE
 10
0.0
 20
0.0
 30
0.0
  9
$PLIMCHECK
 70
     0
  9
$PEXTMIN
 10
1.000000000000000E+20
 20
1.000000000000000E+20
 30
1.000000000000000E+20
  9
$PEXTMAX
 10
-1.000000000000000E+20
 20
-1.000000000000000E+20
 30
-1.000000000000000E+20
  9
$PLIMMIN
 10
0.0
 20
0.0
  9
$PLIMMAX
 10
12.0
 20
9.0
  9
$UNITMODE
 70
     0
  9
$VISRETAIN
 70
     0
  9
$PLINEGEN
 70
     0
  9
$PSLTSCALE
 70
     0
  9
$TREEDEPTH
 70
  3020
  9
$DWGCODEPAGE
  3
undefined
  0
ENDSEC
  0
SECTION
  2
TABLES
  0
TABLE
  2
VPORT
 70
     2
  0
VPORT
  2
*ACTIVE
 70
     0
 10
0.0
 20
0.0
 11
1.0
 21
1.0
 12
211.1943092479096
 22
273.6692052431462
 13
0.0
 23
0.0
 14
1.0
 24
1.0
 15
10.0
 25
10.0
 16
0.0
 26
0.0
 36
1.0
 17
0.0
 27
0.0
 37
0.0
 40
103.7301601564357
 41
1.275675675675675
 42
50.0
 43
0.0
 44
0.0
 50
0.0
 51
0.0
 71
     0
 72
   100
 73
     1
 74
     0
 75
     0
 76
     0
 77
     0
 78
     0
  0
ENDTAB
  0
TABLE
  2
LTYPE
 70
     3
  0
LTYPE
  2
CONTINUOUS
 70
    64
  3
Solid line
 72
    65
 73
     0
 40
0.0
  0
LTYPE
  2
GEN
 70
    64
  3
----------------------
 72
    65
 73
     2
 40
10000000000.0
 49
0.0
 49
10000000000.0
  0
LTYPE
  2
ITEM-STRICHPGR
 70
    64
  3
____ . ____ . ____ . ____ . ____ . ____ . ____
 72
    65
 73
     4
 40
15.0
 49
10.0
 49
-2.5
 49
0.0
 49
-2.5
  0
ENDTAB
  0
TABLE
  2
LAYER
 70
     3
  0
LAYER
  2
0
 70
    64
 62
     7
  6
GEN
  0
LAYER
  2
ITEM_50
 70
    64
 62
     7
  6
CONTINUOUS
  0
LAYER
  2
ITEM_STPG
 70
    64
 62
     4
  6
ITEM-STRICHPGR
  0
ENDTAB
  0
TABLE
  2
STYLE
 70
     1
  0
STYLE
  2
STANDARD
 70
     0
 40
0.0
 41
1.0
 50
0.0
 71
     0
 42
3.5
  3
ISO8
  4

  0
ENDTAB
  0
TABLE
  2
VIEW
 70
     0
  0
ENDTAB
  0
TABLE
  2
UCS
 70
     0
  0
ENDTAB
  0
TABLE
  2
APPID
 70
     1
  0
APPID
  2
ACAD
 70
    64
  0
ENDTAB
  0
TABLE
  2
DIMSTYLE
 70
     0
  0
ENDTAB
  0
ENDSEC
  0
SECTION
  2
BLOCKS
  0
BLOCK
  8
0
  2
37346B
 70
    64
 10
0.0
 20
0.0
 30
0.0
  3
37346B
  0
ENDBLK
  8
0
  0
BLOCK
  8
0
  2
37390B
 70
    64
 10
0.0
 20
0.0
 30
0.0
  3
37390B
  0
ENDBLK
  8
0
  0
ENDSEC
  0
SECTION
  2
ENTITIES
  0
INSERT
  8
0
  2
37346B
 10
0.0
 20
0.0
 30
0.0
  0
INSERT
  8
0
  2
37390B
 10
0.0
 20
0.0
 30
0.0
  0
INSERT
  8
0
  2
37346B
 10
0.0
 20
0.0
 30
0.0
  0
INSERT
  8
0
  2
37390B
 10
0.0
 20
0.0
 30
0.0
  0
INSERT
  8
0
  2
37346B
 10
18.78461499999999
 20
407.6769229999999
 30
0.0
  0
INSERT
  8
0
  2
37390B
 10
18.78461499999999
 20
407.6769229999999
 30
0.0
  0
INSERT
  8
0
  2
37346B
 10
18.78461499999999
 20
407.6769229999999
 30
0.0
  0
INSERT
  8
0
  2
37390B
 10
18.78461499999999
 20
407.6769229999999
 30
0.0
  0
INSERT
  8
0
  2
37390B
 10
513.404339
 20
318.162816
 30
0.0
  0
LINE
  8
ITEM_STPG
 10
145.031288175156
 20
274.6089524185295
 30
0.0
 11
231.0256667975862
 21
274.6089524185295
 31
0.0
  0
ARC
  8
ITEM_50
 10
149.7993797624787
 20
232.6089524185295
 30
0.0
 40
1.0
 50
90.0
 51
180.0
  0
LINE
  8
ITEM_50
 10
148.7993797624787
 20
232.6089524185295
 30
0.0
 11
148.7993797624787
 21
224.6089524185295
 31
0.0
  0
LINE
  8
ITEM_50
 10
148.7993797624787
 20
224.6089524185295
 30
0.0
 11
228.7993797624787
 21
224.6089524185295
 31
0.0
  0
ARC
  8
ITEM_50
 10
227.7993797624787
 20
232.6089524185295
 30
0.0
 40
1.0
 50
0.0
 51
90.0
  0
LINE
  8
ITEM_50
 10
228.7993797624787
 20
224.6089524185295
 30
0.0
 11
228.7993797624787
 21
232.6089524185295
 31
0.0
  0
LINE
  8
ITEM_STPG
 10
188.7993797624787
 20
317.6423581324423
 30
0.0
 11
188.7993797624787
 21
221.8041251649284
 31
0.0
  0
LINE
  8
ITEM_50
 10
148.7993797624787
 20
233.6089524185295
 30
0.0
 11
149.1571807624787
 21
274.6089524185295
 31
0.0
  0
ARC
  8
ITEM_50
 10
188.7993797624787
 20
274.6089524185295
 30
0.0
 40
39.642198
 50
0.0
 51
180.0
  0
LINE
  8
ITEM_50
 10
228.7993797624787
 20
233.6089524185295
 30
0.0
 11
228.4415777624787
 21
274.6089524185295
 31
0.0
  0
LINE
  8
ITEM_50
 10
228.7993797624787
 20
233.6089524185295
 30
0.0
 11
148.7993797624787
 21
233.6089524185295
 31
0.0
  0
CIRCLE
  8
ITEM_50
 10
188.7993797624788
 20
274.6089524185294
 30
0.0
 40
19.75
  0
CIRCLE
  8
ITEM_50
 10
188.7993797624788
 20
274.6089524185294
 30
0.0
 40
20.0
  0
CIRCLE
  8
ITEM_50
 10
188.7993797624788
 20
274.6089524185294
 30
0.0
 40
8.0
  0
LINE
  8
ITEM_50
 10
186.2013035511255
 20
273.1089524185294
 30
0.0
 11
188.7993797624788
 21
271.6089524185294
 31
0.0
  0
LINE
  8
ITEM_50
 10
188.7993797624788
 20
271.6089524185294
 30
0.0
 11
191.3974559738321
 21
273.1089524185294
 31
0.0
  0
LINE
  8
ITEM_50
 10
191.3974559738321
 20
273.1089524185294
 30
0.0
 11
191.3974559738321
 21
276.1089524185294
 31
0.0
  0
LINE
  8
ITEM_50
 10
191.3974559738321
 20
276.1089524185294
 30
0.0
 11
188.7993797624788
 21
277.6089524185294
 31
0.0
  0
LINE
  8
ITEM_50
 10
188.7993797624788
 20
277.6089524185294
 30
0.0
 11
186.2013035511255
 21
276.1089524185294
 31
0.0
  0
LINE
  8
ITEM_50
 10
186.2013035511255
 20
276.1089524185294
 30
0.0
 11
186.2013035511255
 21
273.1089524185294
 31
0.0
  0
ENDSEC
  0
EOF
